ISO-10303-21;
HEADER;
FILE_DESCRIPTION (( 'STEP AP214' ),
    '1' );
FILE_NAME ('TEF-PLATE01.STEP',
    '2018-11-20T20:16:24',
    ( '' ),
    ( '' ),
    'SwSTEP 2.0',
    'SolidWorks 2017',
    '' );
FILE_SCHEMA (( 'AUTOMOTIVE_DESIGN' ));
ENDSEC;

DATA;
#1 = LINE ( 'NONE', #87, #325 ) ;
#2 = PRODUCT_DEFINITION_FORMATION_WITH_SPECIFIED_SOURCE ( 'ANY', '', #30, .NOT_KNOWN. ) ;
#3 = EDGE_LOOP ( 'NONE', ( #44, #64, #59, #166 ) ) ;
#4 = LENGTH_MEASURE_WITH_UNIT ( LENGTH_MEASURE( 0.02539999999999999900 ), #20 );
#5 = AXIS2_PLACEMENT_3D ( 'NONE', #103, #35, #347 ) ;
#6 = APPLICATION_PROTOCOL_DEFINITION ( 'draft international standard', 'automotive_design', 1998, #272 ) ;
#7 = CARTESIAN_POINT ( 'NONE',  ( 5.125000000000000000, -0.1000000000000000100, -6.125000000000000000 ) ) ;
#8 = AXIS2_PLACEMENT_3D ( 'NONE', #219, #287, #259 ) ;
#9 = ORIENTED_EDGE ( 'NONE', *, *, #150, .T. ) ;
#10 = EDGE_LOOP ( 'NONE', ( #209 ) ) ;
#11 = CARTESIAN_POINT ( 'NONE',  ( -5.125000000000000000, 0.0000000000000000000, 6.124999999999997300 ) ) ;
#12 = DIRECTION ( 'NONE',  ( 0.0000000000000000000, -0.0000000000000000000, -1.000000000000000000 ) ) ;
#13 = EDGE_CURVE ( 'NONE', #283, #143, #76, .T. ) ;
#14 = CARTESIAN_POINT ( 'NONE',  ( -5.125000000000000000, 0.0000000000000000000, -6.125000000000000000 ) ) ;
#15 = ORIENTED_EDGE ( 'NONE', *, *, #53, .T. ) ;
#16 = DIRECTION ( 'NONE',  ( 0.0000000000000000000, 0.0000000000000000000, 1.000000000000000000 ) ) ;
#17 = EDGE_LOOP ( 'NONE', ( #223 ) ) ;
#18 = FACE_BOUND ( 'NONE', #200, .T. ) ;
#19 = PRODUCT_DEFINITION ( 'UNKNOWN', '', #2, #80 ) ;
#20 =( LENGTH_UNIT ( ) NAMED_UNIT ( * ) SI_UNIT ( $, .METRE. ) );
#21 = LINE ( 'NONE', #83, #222 ) ;
#22 = CARTESIAN_POINT ( 'NONE',  ( 5.424999999999999800, 0.0000000000000000000, -6.375000000000000000 ) ) ;
#23 = ORIENTED_EDGE ( 'NONE', *, *, #338, .F. ) ;
#24 = FACE_BOUND ( 'NONE', #314, .T. ) ;
#25 = FILL_AREA_STYLE ('',( #142 ) ) ;
#26 = CIRCLE ( 'NONE', #126, 0.1250000000000004400 ) ;
#27 = DIRECTION ( 'NONE',  ( 0.0000000000000000000, 1.000000000000000000, 0.0000000000000000000 ) ) ;
#28 = EDGE_CURVE ( 'NONE', #270, #270, #245, .T. ) ;
#29 = ADVANCED_FACE ( 'NONE', ( #234, #274 ), #38, .F. ) ;
#30 = PRODUCT ( 'TEF-PLATE01', 'TEF-PLATE01', '', ( #119 ) ) ;
#31 = LINE ( 'NONE', #132, #129 ) ;
#32 =( GEOMETRIC_REPRESENTATION_CONTEXT ( 3 ) GLOBAL_UNCERTAINTY_ASSIGNED_CONTEXT ( ( #165 ) ) GLOBAL_UNIT_ASSIGNED_CONTEXT ( ( #206, #100, #69 ) ) REPRESENTATION_CONTEXT ( 'NONE', 'WORKASPACE' ) );
#33 = DIRECTION ( 'NONE',  ( 0.0000000000000000000, 0.0000000000000000000, 1.000000000000000000 ) ) ;
#34 = EDGE_CURVE ( 'NONE', #63, #63, #26, .T. ) ;
#35 = DIRECTION ( 'NONE',  ( 0.0000000000000000000, 0.0000000000000000000, -1.000000000000000000 ) ) ;
#36 = AXIS2_PLACEMENT_3D ( 'NONE', #61, #193, #113 ) ;
#37 = FILL_AREA_STYLE_COLOUR ( '', #323 ) ;
#38 = CYLINDRICAL_SURFACE ( 'NONE', #91, 0.1250000000000004400 ) ;
#39 = CARTESIAN_POINT ( 'NONE',  ( 5.424999999999999800, -0.1000000000000000100, 6.374999999999998200 ) ) ;
#40 = FACE_BOUND ( 'NONE', #320, .T. ) ;
#41 = DIRECTION ( 'NONE',  ( 0.0000000000000000000, -1.000000000000000000, 0.0000000000000000000 ) ) ;
#42 = CLOSED_SHELL ( 'NONE', ( #177, #49, #335, #285, #268, #277, #135, #218, #295, #29 ) ) ;
#43 = DIRECTION ( 'NONE',  ( 1.000000000000000000, -0.0000000000000000000, -0.0000000000000000000 ) ) ;
#44 = ORIENTED_EDGE ( 'NONE', *, *, #74, .F. ) ;
#45 = VERTEX_POINT ( 'NONE', #216 ) ;
#46 = AXIS2_PLACEMENT_3D ( 'NONE', #207, #162, #12 ) ;
#47 = CARTESIAN_POINT ( 'NONE',  ( -5.125000000000000000, -0.1000000000000000100, -5.999999999999999100 ) ) ;
#48 = DIRECTION ( 'NONE',  ( 0.0000000000000000000, 0.0000000000000000000, 1.000000000000000000 ) ) ;
#49 = ADVANCED_FACE ( 'NONE', ( #308 ), #140, .T. ) ;
#50 = CIRCLE ( 'NONE', #155, 0.1250000000000004400 ) ;
#51 = DIRECTION ( 'NONE',  ( -1.714100701906988900E-016, -0.0000000000000000000, 1.000000000000000000 ) ) ;
#52 = PRESENTATION_STYLE_ASSIGNMENT (( #72 ) ) ;
#53 = EDGE_CURVE ( 'NONE', #183, #332, #307, .T. ) ;
#54 = CARTESIAN_POINT ( 'NONE',  ( 5.125000000000000000, -0.1000000000000000100, -5.999999999999999100 ) ) ;
#55 = SURFACE_STYLE_USAGE ( .BOTH. , #269 ) ;
#56 = SURFACE_STYLE_FILL_AREA ( #25 ) ;
#57 = LINE ( 'NONE', #340, #290 ) ;
#58 = VERTEX_POINT ( 'NONE', #109 ) ;
#59 = ORIENTED_EDGE ( 'NONE', *, *, #178, .F. ) ;
#60 = PLANE ( 'NONE',  #198 ) ;
#61 = CARTESIAN_POINT ( 'NONE',  ( 0.0000000000000000000, 0.0000000000000000000, 0.0000000000000000000 ) ) ;
#62 =( GEOMETRIC_REPRESENTATION_CONTEXT ( 3 ) GLOBAL_UNCERTAINTY_ASSIGNED_CONTEXT ( ( #154 ) ) GLOBAL_UNIT_ASSIGNED_CONTEXT ( ( #144, #345, #220 ) ) REPRESENTATION_CONTEXT ( 'NONE', 'WORKASPACE' ) );
#63 = VERTEX_POINT ( 'NONE', #173 ) ;
#64 = ORIENTED_EDGE ( 'NONE', *, *, #174, .F. ) ;
#65 = VERTEX_POINT ( 'NONE', #39 ) ;
#66 = FACE_OUTER_BOUND ( 'NONE', #179, .T. ) ;
#67 = CARTESIAN_POINT ( 'NONE',  ( 5.424999999999999800, -0.1000000000000000100, 6.374999999999998200 ) ) ;
#68 = UNCERTAINTY_MEASURE_WITH_UNIT (LENGTH_MEASURE( 1.000000000000000100E-005 ), #145, 'distance_accuracy_value', 'NONE');
#69 =( NAMED_UNIT ( * ) SI_UNIT ( $, .STERADIAN. ) SOLID_ANGLE_UNIT ( ) );
#70 = CIRCLE ( 'NONE', #294, 0.1250000000000004400 ) ;
#71 = EDGE_CURVE ( 'NONE', #176, #176, #164, .T. ) ;
#72 = SURFACE_STYLE_USAGE ( .BOTH. , #133 ) ;
#73 =( LENGTH_UNIT ( ) NAMED_UNIT ( * ) SI_UNIT ( $, .METRE. ) );
#74 = EDGE_CURVE ( 'NONE', #65, #275, #31, .T. ) ;
#75 = ORIENTED_EDGE ( 'NONE', *, *, #34, .T. ) ;
#76 = LINE ( 'NONE', #180, #160 ) ;
#77 = ORIENTED_EDGE ( 'NONE', *, *, #196, .F. ) ;
#78 = FACE_OUTER_BOUND ( 'NONE', #243, .T. ) ;
#79 = STYLED_ITEM ( 'NONE', ( #123 ), #213 ) ;
#80 = PRODUCT_DEFINITION_CONTEXT ( 'detailed design', #272, 'design' ) ;
#81 = CARTESIAN_POINT ( 'NONE',  ( -5.424999999999997200, 0.0000000000000000000, -6.375000000000000000 ) ) ;
#82 = ORIENTED_EDGE ( 'NONE', *, *, #34, .F. ) ;
#83 = CARTESIAN_POINT ( 'NONE',  ( 5.424999999999999800, -0.1000000000000000100, -6.375000000000000000 ) ) ;
#84 = DIRECTION ( 'NONE',  ( -1.000000000000000000, -0.0000000000000000000, -0.0000000000000000000 ) ) ;
#85 = ORIENTED_EDGE ( 'NONE', *, *, #157, .F. ) ;
#86 = LINE ( 'NONE', #81, #231 ) ;
#87 = CARTESIAN_POINT ( 'NONE',  ( -5.424999999999998900, -0.1000000000000000100, 6.374999999999998200 ) ) ;
#88 = FACE_OUTER_BOUND ( 'NONE', #3, .T. ) ;
#89 = DIRECTION ( 'NONE',  ( 1.000000000000000000, 0.0000000000000000000, 0.0000000000000000000 ) ) ;
#90 = EDGE_LOOP ( 'NONE', ( #93 ) ) ;
#91 = AXIS2_PLACEMENT_3D ( 'NONE', #279, #225, #233 ) ;
#92 = DIRECTION ( 'NONE',  ( 0.0000000000000000000, 1.000000000000000000, 0.0000000000000000000 ) ) ;
#93 = ORIENTED_EDGE ( 'NONE', *, *, #157, .T. ) ;
#94 = DIRECTION ( 'NONE',  ( 0.0000000000000000000, 0.0000000000000000000, 1.000000000000000000 ) ) ;
#95 = ORIENTED_EDGE ( 'NONE', *, *, #246, .T. ) ;
#96 = VERTEX_POINT ( 'NONE', #54 ) ;
#97 = DIRECTION ( 'NONE',  ( 0.0000000000000000000, 1.000000000000000000, 0.0000000000000000000 ) ) ;
#98 = LINE ( 'NONE', #333, #215 ) ;
#99 = DIRECTION ( 'NONE',  ( -1.000000000000000000, -0.0000000000000000000, -0.0000000000000000000 ) ) ;
#100 =( NAMED_UNIT ( * ) PLANE_ANGLE_UNIT ( ) SI_UNIT ( $, .RADIAN. ) );
#101 = VECTOR ( 'NONE', #202, 39.37007874015748100 ) ;
#102 = LENGTH_MEASURE_WITH_UNIT ( LENGTH_MEASURE( 0.02539999999999999900 ), #148 );
#103 = CARTESIAN_POINT ( 'NONE',  ( -5.424999999999997200, -0.1000000000000000100, -6.375000000000000000 ) ) ;
#104 = FACE_OUTER_BOUND ( 'NONE', #116, .T. ) ;
#105 = ORIENTED_EDGE ( 'NONE', *, *, #316, .F. ) ;
#106 = EDGE_CURVE ( 'NONE', #275, #58, #312, .T. ) ;
#107 = DIRECTION ( 'NONE',  ( 0.0000000000000000000, 0.0000000000000000000, 1.000000000000000000 ) ) ;
#108 = AXIS2_PLACEMENT_3D ( 'NONE', #278, #297, #94 ) ;
#109 = CARTESIAN_POINT ( 'NONE',  ( -5.424999999999997200, -0.1000000000000000100, -6.375000000000000000 ) ) ;
#110 = CYLINDRICAL_SURFACE ( 'NONE', #8, 0.1250000000000004400 ) ;
#111 = DIRECTION ( 'NONE',  ( 0.0000000000000000000, 1.000000000000000000, 0.0000000000000000000 ) ) ;
#112 = CIRCLE ( 'NONE', #108, 0.1250000000000004400 ) ;
#113 = DIRECTION ( 'NONE',  ( 1.000000000000000000, 0.0000000000000000000, 0.0000000000000000000 ) ) ;
#114 = LINE ( 'NONE', #239, #292 ) ;
#115 = DIRECTION ( 'NONE',  ( 0.0000000000000000000, 0.0000000000000000000, 1.000000000000000000 ) ) ;
#116 = EDGE_LOOP ( 'NONE', ( #105 ) ) ;
#117 = CARTESIAN_POINT ( 'NONE',  ( -5.125000000000000000, -0.1000000000000000100, 6.249999999999998200 ) ) ;
#118 = MECHANICAL_DESIGN_GEOMETRIC_PRESENTATION_REPRESENTATION (  '', ( #221 ), #32 ) ;
#119 = PRODUCT_CONTEXT ( 'NONE', #326, 'mechanical' ) ;
#120 = ORIENTED_EDGE ( 'NONE', *, *, #130, .T. ) ;
#121 = DIRECTION ( 'NONE',  ( 0.0000000000000000000, 0.0000000000000000000, 1.000000000000000000 ) ) ;
#122 = FACE_OUTER_BOUND ( 'NONE', #228, .T. ) ;
#123 = PRESENTATION_STYLE_ASSIGNMENT (( #55 ) ) ;
#124 = FACE_BOUND ( 'NONE', #17, .T. ) ;
#125 = ORIENTED_EDGE ( 'NONE', *, *, #251, .F. ) ;
#126 = AXIS2_PLACEMENT_3D ( 'NONE', #14, #293, #343 ) ;
#127 = EDGE_LOOP ( 'NONE', ( #248 ) ) ;
#128 = ORIENTED_EDGE ( 'NONE', *, *, #246, .F. ) ;
#129 = VECTOR ( 'NONE', #214, 39.37007874015748100 ) ;
#130 = EDGE_CURVE ( 'NONE', #143, #183, #86, .T. ) ;
#131 = DIRECTION ( 'NONE',  ( 0.0000000000000000000, 1.000000000000000000, 0.0000000000000000000 ) ) ;
#132 = CARTESIAN_POINT ( 'NONE',  ( 5.424999999999999800, -0.1000000000000000100, -6.375000000000000000 ) ) ;
#133 = SURFACE_SIDE_STYLE ('',( #208 ) ) ;
#134 = EDGE_LOOP ( 'NONE', ( #319, #77, #260, #226 ) ) ;
#135 = ADVANCED_FACE ( 'NONE', ( #104, #152 ), #170, .F. ) ;
#136 = ORIENTED_EDGE ( 'NONE', *, *, #338, .T. ) ;
#137 = CYLINDRICAL_SURFACE ( 'NONE', #201, 0.1250000000000004400 ) ;
#138 = ORIENTED_EDGE ( 'NONE', *, *, #196, .T. ) ;
#139 = DIRECTION ( 'NONE',  ( -1.714100701906988900E-016, 0.0000000000000000000, 1.000000000000000000 ) ) ;
#140 = PLANE ( 'NONE',  #273 ) ;
#141 = VERTEX_POINT ( 'NONE', #217 ) ;
#142 = FILL_AREA_STYLE_COLOUR ( '', #257 ) ;
#143 = VERTEX_POINT ( 'NONE', #22 ) ;
#144 =( CONVERSION_BASED_UNIT ( 'INCH', #4 ) LENGTH_UNIT ( ) NAMED_UNIT ( #255 ) );
#145 =( CONVERSION_BASED_UNIT ( 'INCH', #102 ) LENGTH_UNIT ( ) NAMED_UNIT ( #199 ) );
#146 = VECTOR ( 'NONE', #99, 39.37007874015748100 ) ;
#147 = FACE_BOUND ( 'NONE', #149, .T. ) ;
#148 =( LENGTH_UNIT ( ) NAMED_UNIT ( * ) SI_UNIT ( $, .METRE. ) );
#149 = EDGE_LOOP ( 'NONE', ( #136 ) ) ;
#150 = EDGE_CURVE ( 'NONE', #332, #283, #57, .T. ) ;
#151 = ORIENTED_EDGE ( 'NONE', *, *, #316, .T. ) ;
#152 = FACE_OUTER_BOUND ( 'NONE', #298, .T. ) ;
#153 = CARTESIAN_POINT ( 'NONE',  ( -5.424999999999998900, -0.1000000000000000100, 6.374999999999998200 ) ) ;
#154 = UNCERTAINTY_MEASURE_WITH_UNIT (LENGTH_MEASURE( 1.000000000000000100E-005 ), #144, 'distance_accuracy_value', 'NONE');
#155 = AXIS2_PLACEMENT_3D ( 'NONE', #11, #261, #16 ) ;
#156 = CARTESIAN_POINT ( 'NONE',  ( 5.424999999999999800, -0.1000000000000000100, -6.375000000000000000 ) ) ;
#157 = EDGE_CURVE ( 'NONE', #252, #252, #304, .T. ) ;
#158 = ORIENTED_EDGE ( 'NONE', *, *, #178, .T. ) ;
#159 = LINE ( 'NONE', #67, #336 ) ;
#160 = VECTOR ( 'NONE', #322, 39.37007874015748100 ) ;
#161 = CARTESIAN_POINT ( 'NONE',  ( 5.424999999999999800, -0.1000000000000000100, -6.375000000000000000 ) ) ;
#162 = DIRECTION ( 'NONE',  ( 0.0000000000000000000, -1.000000000000000000, 0.0000000000000000000 ) ) ;
#163 = DIRECTION ( 'NONE',  ( 0.0000000000000000000, 1.000000000000000000, 0.0000000000000000000 ) ) ;
#164 = CIRCLE ( 'NONE', #210, 0.1250000000000004400 ) ;
#165 = UNCERTAINTY_MEASURE_WITH_UNIT (LENGTH_MEASURE( 1.000000000000000100E-005 ), #206, 'distance_accuracy_value', 'NONE');
#166 = ORIENTED_EDGE ( 'NONE', *, *, #106, .F. ) ;
#167 = AXIS2_PLACEMENT_3D ( 'NONE', #271, #306, #107 ) ;
#168 = DIRECTION ( 'NONE',  ( 0.0000000000000000000, 1.000000000000000000, 0.0000000000000000000 ) ) ;
#169 = DIRECTION ( 'NONE',  ( 0.0000000000000000000, -0.0000000000000000000, 1.000000000000000000 ) ) ;
#170 = CYLINDRICAL_SURFACE ( 'NONE', #184, 0.1250000000000004400 ) ;
#171 = DIRECTION ( 'NONE',  ( 0.0000000000000000000, 0.0000000000000000000, 1.000000000000000000 ) ) ;
#172 = FACE_BOUND ( 'NONE', #311, .T. ) ;
#173 = CARTESIAN_POINT ( 'NONE',  ( -5.125000000000000000, 0.0000000000000000000, -5.999999999999999100 ) ) ;
#174 = EDGE_CURVE ( 'NONE', #141, #65, #159, .T. ) ;
#175 = FACE_OUTER_BOUND ( 'NONE', #185, .T. ) ;
#176 = VERTEX_POINT ( 'NONE', #321 ) ;
#177 = ADVANCED_FACE ( 'NONE', ( #78 ), #60, .T. ) ;
#178 = EDGE_CURVE ( 'NONE', #58, #141, #114, .T. ) ;
#179 = EDGE_LOOP ( 'NONE', ( #23 ) ) ;
#180 = CARTESIAN_POINT ( 'NONE',  ( 5.424999999999999800, 0.0000000000000000000, -6.375000000000000000 ) ) ;
#181 = SHAPE_DEFINITION_REPRESENTATION ( #237, #213 ) ;
#182 = DIRECTION ( 'NONE',  ( 0.0000000000000000000, -0.0000000000000000000, -1.000000000000000000 ) ) ;
#183 = VERTEX_POINT ( 'NONE', #341 ) ;
#184 = AXIS2_PLACEMENT_3D ( 'NONE', #263, #284, #171 ) ;
#185 = EDGE_LOOP ( 'NONE', ( #238 ) ) ;
#186 = CARTESIAN_POINT ( 'NONE',  ( 5.125000000000000000, 0.0000000000000000000, -5.999999999999999100 ) ) ;
#187 = ORIENTED_EDGE ( 'NONE', *, *, #13, .T. ) ;
#188 = VECTOR ( 'NONE', #131, 39.37007874015748100 ) ;
#189 = ORIENTED_EDGE ( 'NONE', *, *, #28, .T. ) ;
#190 = CARTESIAN_POINT ( 'NONE',  ( -5.424999999999997200, -0.1000000000000000100, -6.375000000000000000 ) ) ;
#191 =( NAMED_UNIT ( * ) SI_UNIT ( $, .STERADIAN. ) SOLID_ANGLE_UNIT ( ) );
#192 = ORIENTED_EDGE ( 'NONE', *, *, #310, .T. ) ;
#193 = DIRECTION ( 'NONE',  ( 0.0000000000000000000, 0.0000000000000000000, 1.000000000000000000 ) ) ;
#194 = AXIS2_PLACEMENT_3D ( 'NONE', #235, #41, #182 ) ;
#195 = CIRCLE ( 'NONE', #240, 0.1250000000000004400 ) ;
#196 = EDGE_CURVE ( 'NONE', #275, #143, #21, .T. ) ;
#197 = ORIENTED_EDGE ( 'NONE', *, *, #150, .F. ) ;
#198 = AXIS2_PLACEMENT_3D ( 'NONE', #156, #89, #317 ) ;
#199 = DIMENSIONAL_EXPONENTS ( 1.000000000000000000, 0.0000000000000000000, 0.0000000000000000000, 0.0000000000000000000, 0.0000000000000000000, 0.0000000000000000000, 0.0000000000000000000 ) ;
#200 = EDGE_LOOP ( 'NONE', ( #85 ) ) ;
#201 = AXIS2_PLACEMENT_3D ( 'NONE', #315, #168, #266 ) ;
#202 = DIRECTION ( 'NONE',  ( -1.714100701906988900E-016, -0.0000000000000000000, 1.000000000000000000 ) ) ;
#203 = MANIFOLD_SOLID_BREP ( 'Boss-Extrude1', #42 ) ;
#204 = CARTESIAN_POINT ( 'NONE',  ( 5.424999999999999800, -0.1000000000000000100, 6.374999999999998200 ) ) ;
#205 = ORIENTED_EDGE ( 'NONE', *, *, #13, .F. ) ;
#206 =( CONVERSION_BASED_UNIT ( 'INCH', #211 ) LENGTH_UNIT ( ) NAMED_UNIT ( #327 ) );
#207 = CARTESIAN_POINT ( 'NONE',  ( 0.0000000000000000000, -0.1000000000000000100, 0.0000000000000000000 ) ) ;
#208 = SURFACE_STYLE_FILL_AREA ( #289 ) ;
#209 = ORIENTED_EDGE ( 'NONE', *, *, #71, .T. ) ;
#210 = AXIS2_PLACEMENT_3D ( 'NONE', #331, #111, #48 ) ;
#211 = LENGTH_MEASURE_WITH_UNIT ( LENGTH_MEASURE( 0.02539999999999999900 ), #73 );
#212 = FACE_OUTER_BOUND ( 'NONE', #10, .T. ) ;
#213 = ADVANCED_BREP_SHAPE_REPRESENTATION ( 'TEF-PLATE01', ( #203, #36 ), #62 ) ;
#214 = DIRECTION ( 'NONE',  ( -0.0000000000000000000, -0.0000000000000000000, -1.000000000000000000 ) ) ;
#215 = VECTOR ( 'NONE', #97, 39.37007874015748100 ) ;
#216 = CARTESIAN_POINT ( 'NONE',  ( -5.125000000000000000, 0.0000000000000000000, 6.249999999999998200 ) ) ;
#217 = CARTESIAN_POINT ( 'NONE',  ( -5.424999999999998900, -0.1000000000000000100, 6.374999999999998200 ) ) ;
#218 = ADVANCED_FACE ( 'NONE', ( #175, #247 ), #110, .F. ) ;
#219 = CARTESIAN_POINT ( 'NONE',  ( 5.125000000000000000, -0.1000000000000000100, -6.125000000000000000 ) ) ;
#220 =( NAMED_UNIT ( * ) SI_UNIT ( $, .STERADIAN. ) SOLID_ANGLE_UNIT ( ) );
#221 = STYLED_ITEM ( 'NONE', ( #52 ), #203 ) ;
#222 = VECTOR ( 'NONE', #163, 39.37007874015748100 ) ;
#223 = ORIENTED_EDGE ( 'NONE', *, *, #71, .F. ) ;
#224 = AXIS2_PLACEMENT_3D ( 'NONE', #153, #276, #139 ) ;
#225 = DIRECTION ( 'NONE',  ( 0.0000000000000000000, 1.000000000000000000, 0.0000000000000000000 ) ) ;
#226 = ORIENTED_EDGE ( 'NONE', *, *, #251, .T. ) ;
#227 = ORIENTED_EDGE ( 'NONE', *, *, #232, .F. ) ;
#228 = EDGE_LOOP ( 'NONE', ( #250, #125, #158, #281 ) ) ;
#229 = ORIENTED_EDGE ( 'NONE', *, *, #28, .F. ) ;
#230 = PRESENTATION_LAYER_ASSIGNMENT (  '', '', ( #79 ) ) ;
#231 = VECTOR ( 'NONE', #84, 39.37007874015748100 ) ;
#232 = EDGE_CURVE ( 'NONE', #45, #45, #50, .T. ) ;
#233 = DIRECTION ( 'NONE',  ( 0.0000000000000000000, 0.0000000000000000000, 1.000000000000000000 ) ) ;
#234 = FACE_OUTER_BOUND ( 'NONE', #329, .T. ) ;
#235 = CARTESIAN_POINT ( 'NONE',  ( 0.0000000000000000000, 0.0000000000000000000, 0.0000000000000000000 ) ) ;
#236 = PRESENTATION_LAYER_ASSIGNMENT (  '', '', ( #221 ) ) ;
#237 = PRODUCT_DEFINITION_SHAPE ( 'NONE', 'NONE',  #19 ) ;
#238 = ORIENTED_EDGE ( 'NONE', *, *, #310, .F. ) ;
#239 = CARTESIAN_POINT ( 'NONE',  ( -5.424999999999998900, -0.1000000000000000100, 6.374999999999998200 ) ) ;
#240 = AXIS2_PLACEMENT_3D ( 'NONE', #241, #249, #33 ) ;
#241 = CARTESIAN_POINT ( 'NONE',  ( 5.125000000000000000, -0.1000000000000000100, 6.124999999999997300 ) ) ;
#242 = FACE_OUTER_BOUND ( 'NONE', #288, .T. ) ;
#243 = EDGE_LOOP ( 'NONE', ( #205, #128, #309, #138 ) ) ;
#244 = ORIENTED_EDGE ( 'NONE', *, *, #344, .F. ) ;
#245 = CIRCLE ( 'NONE', #167, 0.1250000000000004400 ) ;
#246 = EDGE_CURVE ( 'NONE', #65, #283, #265, .T. ) ;
#247 = FACE_OUTER_BOUND ( 'NONE', #90, .T. ) ;
#248 = ORIENTED_EDGE ( 'NONE', *, *, #232, .T. ) ;
#249 = DIRECTION ( 'NONE',  ( 0.0000000000000000000, 1.000000000000000000, 0.0000000000000000000 ) ) ;
#250 = ORIENTED_EDGE ( 'NONE', *, *, #53, .F. ) ;
#251 = EDGE_CURVE ( 'NONE', #58, #183, #98, .T. ) ;
#252 = VERTEX_POINT ( 'NONE', #186 ) ;
#253 = ORIENTED_EDGE ( 'NONE', *, *, #174, .T. ) ;
#254 = CARTESIAN_POINT ( 'NONE',  ( -5.424999999999998900, 0.0000000000000000000, 6.374999999999998200 ) ) ;
#255 = DIMENSIONAL_EXPONENTS ( 1.000000000000000000, 0.0000000000000000000, 0.0000000000000000000, 0.0000000000000000000, 0.0000000000000000000, 0.0000000000000000000, 0.0000000000000000000 ) ;
#256 = CARTESIAN_POINT ( 'NONE',  ( 5.424999999999999800, 0.0000000000000000000, 6.374999999999998200 ) ) ;
#257 = COLOUR_RGB ( '',0.7921568627450980000, 0.8196078431372548800, 0.9333333333333333500 ) ;
#258 = PLANE ( 'NONE',  #5 ) ;
#259 = DIRECTION ( 'NONE',  ( 0.0000000000000000000, 0.0000000000000000000, 1.000000000000000000 ) ) ;
#260 = ORIENTED_EDGE ( 'NONE', *, *, #106, .T. ) ;
#261 = DIRECTION ( 'NONE',  ( 0.0000000000000000000, 1.000000000000000000, 0.0000000000000000000 ) ) ;
#262 = MECHANICAL_DESIGN_GEOMETRIC_PRESENTATION_REPRESENTATION (  '', ( #79 ), #280 ) ;
#263 = CARTESIAN_POINT ( 'NONE',  ( -5.125000000000000000, -0.1000000000000000100, -6.125000000000000000 ) ) ;
#264 = CARTESIAN_POINT ( 'NONE',  ( 5.125000000000000000, -0.1000000000000000100, 6.249999999999998200 ) ) ;
#265 = LINE ( 'NONE', #286, #188 ) ;
#266 = DIRECTION ( 'NONE',  ( 0.0000000000000000000, 0.0000000000000000000, 1.000000000000000000 ) ) ;
#267 = CARTESIAN_POINT ( 'NONE',  ( -5.424999999999998900, 0.0000000000000000000, 6.374999999999998200 ) ) ;
#268 = ADVANCED_FACE ( 'NONE', ( #24, #147, #296, #172, #88 ), #330, .T. ) ;
#269 = SURFACE_SIDE_STYLE ('',( #56 ) ) ;
#270 = VERTEX_POINT ( 'NONE', #117 ) ;
#271 = CARTESIAN_POINT ( 'NONE',  ( -5.125000000000000000, -0.1000000000000000100, 6.124999999999997300 ) ) ;
#272 = APPLICATION_CONTEXT ( 'automotive_design' ) ;
#273 = AXIS2_PLACEMENT_3D ( 'NONE', #204, #169, #334 ) ;
#274 = FACE_OUTER_BOUND ( 'NONE', #127, .T. ) ;
#275 = VERTEX_POINT ( 'NONE', #161 ) ;
#276 = DIRECTION ( 'NONE',  ( -1.000000000000000000, 0.0000000000000000000, -1.714100701906988900E-016 ) ) ;
#277 = ADVANCED_FACE ( 'NONE', ( #40, #124, #18, #303, #242 ), #337, .F. ) ;
#278 = CARTESIAN_POINT ( 'NONE',  ( -5.125000000000000000, -0.1000000000000000100, -6.125000000000000000 ) ) ;
#279 = CARTESIAN_POINT ( 'NONE',  ( -5.125000000000000000, -0.1000000000000000100, 6.124999999999997300 ) ) ;
#280 =( GEOMETRIC_REPRESENTATION_CONTEXT ( 3 ) GLOBAL_UNCERTAINTY_ASSIGNED_CONTEXT ( ( #68 ) ) GLOBAL_UNIT_ASSIGNED_CONTEXT ( ( #145, #313, #191 ) ) REPRESENTATION_CONTEXT ( 'NONE', 'WORKASPACE' ) );
#281 = ORIENTED_EDGE ( 'NONE', *, *, #344, .T. ) ;
#282 = EDGE_LOOP ( 'NONE', ( #82 ) ) ;
#283 = VERTEX_POINT ( 'NONE', #256 ) ;
#284 = DIRECTION ( 'NONE',  ( 0.0000000000000000000, 1.000000000000000000, 0.0000000000000000000 ) ) ;
#285 = ADVANCED_FACE ( 'NONE', ( #346 ), #258, .T. ) ;
#286 = CARTESIAN_POINT ( 'NONE',  ( 5.424999999999999800, -0.1000000000000000100, 6.374999999999998200 ) ) ;
#287 = DIRECTION ( 'NONE',  ( 0.0000000000000000000, 1.000000000000000000, 0.0000000000000000000 ) ) ;
#288 = EDGE_LOOP ( 'NONE', ( #187, #120, #15, #9 ) ) ;
#289 = FILL_AREA_STYLE ('',( #37 ) ) ;
#290 = VECTOR ( 'NONE', #43, 39.37007874015748100 ) ;
#291 = AXIS2_PLACEMENT_3D ( 'NONE', #301, #27, #121 ) ;
#292 = VECTOR ( 'NONE', #51, 39.37007874015748100 ) ;
#293 = DIRECTION ( 'NONE',  ( 0.0000000000000000000, 1.000000000000000000, 0.0000000000000000000 ) ) ;
#294 = AXIS2_PLACEMENT_3D ( 'NONE', #7, #92, #115 ) ;
#295 = ADVANCED_FACE ( 'NONE', ( #66, #212 ), #137, .F. ) ;
#296 = FACE_BOUND ( 'NONE', #318, .T. ) ;
#297 = DIRECTION ( 'NONE',  ( 0.0000000000000000000, 1.000000000000000000, 0.0000000000000000000 ) ) ;
#298 = EDGE_LOOP ( 'NONE', ( #75 ) ) ;
#299 = VERTEX_POINT ( 'NONE', #264 ) ;
#300 = DIRECTION ( 'NONE',  ( 1.000000000000000000, -0.0000000000000000000, -0.0000000000000000000 ) ) ;
#301 = CARTESIAN_POINT ( 'NONE',  ( 5.125000000000000000, 0.0000000000000000000, -6.125000000000000000 ) ) ;
#302 = EDGE_LOOP ( 'NONE', ( #197, #244, #253, #95 ) ) ;
#303 = FACE_BOUND ( 'NONE', #282, .T. ) ;
#304 = CIRCLE ( 'NONE', #291, 0.1250000000000004400 ) ;
#305 = VERTEX_POINT ( 'NONE', #47 ) ;
#306 = DIRECTION ( 'NONE',  ( 0.0000000000000000000, 1.000000000000000000, 0.0000000000000000000 ) ) ;
#307 = LINE ( 'NONE', #254, #101 ) ;
#308 = FACE_OUTER_BOUND ( 'NONE', #302, .T. ) ;
#309 = ORIENTED_EDGE ( 'NONE', *, *, #74, .T. ) ;
#310 = EDGE_CURVE ( 'NONE', #96, #96, #70, .T. ) ;
#311 = EDGE_LOOP ( 'NONE', ( #151 ) ) ;
#312 = LINE ( 'NONE', #190, #146 ) ;
#313 =( NAMED_UNIT ( * ) PLANE_ANGLE_UNIT ( ) SI_UNIT ( $, .RADIAN. ) );
#314 = EDGE_LOOP ( 'NONE', ( #189 ) ) ;
#315 = CARTESIAN_POINT ( 'NONE',  ( 5.125000000000000000, -0.1000000000000000100, 6.124999999999997300 ) ) ;
#316 = EDGE_CURVE ( 'NONE', #305, #305, #112, .T. ) ;
#317 = DIRECTION ( 'NONE',  ( 0.0000000000000000000, 0.0000000000000000000, -1.000000000000000000 ) ) ;
#318 = EDGE_LOOP ( 'NONE', ( #192 ) ) ;
#319 = ORIENTED_EDGE ( 'NONE', *, *, #130, .F. ) ;
#320 = EDGE_LOOP ( 'NONE', ( #227 ) ) ;
#321 = CARTESIAN_POINT ( 'NONE',  ( 5.125000000000000000, 0.0000000000000000000, 6.249999999999998200 ) ) ;
#322 = DIRECTION ( 'NONE',  ( -0.0000000000000000000, -0.0000000000000000000, -1.000000000000000000 ) ) ;
#323 = COLOUR_RGB ( '',0.7921568627450980000, 0.8196078431372548800, 0.9333333333333333500 ) ;
#324 = APPLICATION_PROTOCOL_DEFINITION ( 'draft international standard', 'automotive_design', 1998, #326 ) ;
#325 = VECTOR ( 'NONE', #339, 39.37007874015748100 ) ;
#326 = APPLICATION_CONTEXT ( 'automotive_design' ) ;
#327 = DIMENSIONAL_EXPONENTS ( 1.000000000000000000, 0.0000000000000000000, 0.0000000000000000000, 0.0000000000000000000, 0.0000000000000000000, 0.0000000000000000000, 0.0000000000000000000 ) ;
#328 = PRODUCT_RELATED_PRODUCT_CATEGORY ( 'part', '', ( #30 ) ) ;
#329 = EDGE_LOOP ( 'NONE', ( #229 ) ) ;
#330 = PLANE ( 'NONE',  #46 ) ;
#331 = CARTESIAN_POINT ( 'NONE',  ( 5.125000000000000000, 0.0000000000000000000, 6.124999999999997300 ) ) ;
#332 = VERTEX_POINT ( 'NONE', #267 ) ;
#333 = CARTESIAN_POINT ( 'NONE',  ( -5.424999999999997200, -0.1000000000000000100, -6.375000000000000000 ) ) ;
#334 = DIRECTION ( 'NONE',  ( 1.000000000000000000, 0.0000000000000000000, -0.0000000000000000000 ) ) ;
#335 = ADVANCED_FACE ( 'NONE', ( #122 ), #342, .T. ) ;
#336 = VECTOR ( 'NONE', #300, 39.37007874015748100 ) ;
#337 = PLANE ( 'NONE',  #194 ) ;
#338 = EDGE_CURVE ( 'NONE', #299, #299, #195, .T. ) ;
#339 = DIRECTION ( 'NONE',  ( 0.0000000000000000000, 1.000000000000000000, 0.0000000000000000000 ) ) ;
#340 = CARTESIAN_POINT ( 'NONE',  ( 5.424999999999999800, 0.0000000000000000000, 6.374999999999998200 ) ) ;
#341 = CARTESIAN_POINT ( 'NONE',  ( -5.424999999999997200, 0.0000000000000000000, -6.375000000000000000 ) ) ;
#342 = PLANE ( 'NONE',  #224 ) ;
#343 = DIRECTION ( 'NONE',  ( 0.0000000000000000000, 0.0000000000000000000, 1.000000000000000000 ) ) ;
#344 = EDGE_CURVE ( 'NONE', #141, #332, #1, .T. ) ;
#345 =( NAMED_UNIT ( * ) PLANE_ANGLE_UNIT ( ) SI_UNIT ( $, .RADIAN. ) );
#346 = FACE_OUTER_BOUND ( 'NONE', #134, .T. ) ;
#347 = DIRECTION ( 'NONE',  ( -1.000000000000000000, 0.0000000000000000000, -0.0000000000000000000 ) ) ;
ENDSEC;
END-ISO-10303-21;
